Viajero (de Bostik)
(www.acordesytabs.com)
Es mi primer tab para bajo que mando, lo saque en una guitarra.


Verso
Esta parte se repite muchas veces en la canción.

G|--------------------------|
D|--------------------------|
A|--------------------------|
E|--55-44-55-4--33-22-33-2--|


G|------------------------------|
D|----7-10-8--7-6-5-4--7-6-5-4--|
A|--8---------------------------|
E|------------------------------|


Coro
“Voy recorriendo todo un camino de experiencias......
G|-------------------------------------------|
D|----2-5-2--------------7-10-7--7-6-5-4-----|  X 3
A|--3----------2-5-2---8---------------------|
E|-----------3-------------------------------|


En esta parte se cierra el coro y se repiten las pisadas del verso.
G|-------------------------------------------|
D|----2-5-2--------------7-10-7--7-7-7-7-6-5-|  
A|--3----------2-5-2---8---------------------|
E|-----------3-------------------------------|



Esta parte se toca al final del coro como final de la canción.

G|---------------------------------------------|
D|----2-5-2--------------7-10-7--7-7-7-7-6-5-7-|  
A|--3----------2-5-2---8-----------------------|
E|-----------3---------------------------------|

Las dudas y correciones son bienvenidas a mi correro.