Pensaba en ti (de Salón Victoria)
(www.acordesytabs.com)
  A                     F#m
Do quiera que iba yo 
Bm               E
pensaba en ti
A                   F#m
ahora risa me da
Bm                E
no lo hago mas

A                     A7
Tu fuiste para mi
D                 Dm
una vez amor
     A
y ahora no llegas
        E
ni a dolor.

A                    F#m
Una vez fuiste tu
  Bm            E
mi novia fiel
 A                  F#m
supiste como actuar 
 Bm                 E
lo hiciste muy bien

 A                              A7
Mas hoy vuelves a intentarlo 
 D                Dm
no se con quien
   A
y a mi solo me queda 
    E
algo de hiel

  D                  A
Te quise es mas 
  E                   A
también te venere
  B
pero fui un tonto y 
  E
me equivoque
 B
y ahora con niñas 
  E
ya no tratare

 A                   F#m
No lo puedo mentir 
Bm        E
bonita es 
 A                F#m
seria digna mujer 
 Bm                    E
de un gran Márquez


  A                       A7
Solo un problema hay
 D     Dm
caray

  
Que ese Márquez no quisiera ser yo.




*después de que dice "y ahora no llegas" va este arreglo:

e------------------------------------------------------------
B------------------------------------------------------------
G-------------------0-1-2------------------------------------
D------------2-----------------------------------------------
A------------------------------------------------------------
E------------------------------------------------------------


*Al final  cuando dice "Que ese marquez no quisiera se yo" va esto:


e------------------------------------------------------------
B------------------------------------------------------------
G-------------2---0------------------------------------------
D-----------------------2-1---0--------0-------0-------------
A-------0-----------------------------3-------3--------0-----
E------------------------------------------------------------


Comentarios o alguna otra  canción de SALON VICTORIA escríbanme a:

esewaldo@yahoo.com.mx