Viejo el mundo (de Jaguares)
(www.acordesytabs.com)
Este es el Intro:

Intro con Distorcion:

e|-5-5-5--4-4-4--5-5-5-4---------|
b|-6-6-6--5-5-5--6-6-6-5---------|
g|------------------------9-10-9-|
D|-------------------------------|
A|-------------------------------|
E|-------------------------------|

e|-5-5-5--4-4-4--5-5-5-4---------|
b|-6-6-6--5-5-5--6-6-6-5---------|
g|------------------------9-10-9-|
D|-------------------------------|
A|-------------------------------|
E|-------------------------------|

e|---------------------------------------------------|
b|-10-----10-10-----8-8-----6-6-5--12-12-12-11-11-12-|
g|----7-7-------5-5-----3-3--------------------------|
D|---------------------------------------------------|
A|---------------------------------------------------|
E|---------------------------------------------------|

e|--------|
b|-9/12-9-|
g|--------|
D|--------|
A|--------|
E|--------|

ESPERO QUE TE SIRVAN ESTOS RIFFS, SON MUY BUENOS.

E.S.O. 4/30/02