Be quiet and drive (de Deftones)
(www.acordesytabs.com)

Tabbed By: Aaron Patey (el_punkay@hotmail.com)
Tab: "BE QUIET AND DRIVE" By The Deftones

DROP D TUNING

Brackets= Harmonics

INTRO/RIFF:

E-4--4--4--4--9--9--9--9
B-2--2--2--2--7--7--7--7
G-2--2--2--2--7--7--7--7   X4
D-2--2--2--2--7--7--7--7
A-----------------------
D-----------------------


VERSE:
E----------------------------------------------------
B----------------------------------------------------
G-11-XX-11-X-11-11-XX-11-*--11-X-X-11-X-11-11-X-11-11
D----XX----X-------XX----*--11-X-X-11-X-11-11-X-11-11
A--9-XX--9-X--9--9-XX--9-*---9-X-X--9-X--9--9-X--9--9-
D----XX----X-------XX----*---9-X-X--9-X--9--9-X--9--9-

*= On the end of the verse, add this riff here.

RIFF:
E-----------------------------
B-----------------------------
G-11>12-12>14-14>12-12>11-----
D-----------------------------
A--9>10-10>12-12>10-10>-9-----
D-----------------------------

OUTRO:
E--------------------(3)-(3)----------------------------
B-------(3)-(3)------(3)-(3)--------(3)-(3)-------------
G-------(3)-(3)------(3)-(3)--------(3)-(3)-------------
D-0--0--(3)-(3)-0--0----------0--0--(3)-(3)-0-0-1-1-2---  X4
A-0--0----------0--0----------0--0----------0-0-1-1-2---
D-0--0----------0--0----------0--0----------0-0-1-1-2---

(On third time, replace harmonics with palm muted open D)