Perfume de gardenias (de Alejandro Fernandez)
(www.acordesytabs.com)

Armoniza en Fa mayor


A--------------------------------------------------
D--------------------------------------------------
G-5-7------5-5-5-4-5-6--6-----------10-10-10-10-10-
B-----6--6-6-6-6-6-6-5--5-----------10-10-10-10-11-
e-------5--5-5-5-5-5-5--5-4-5-5/10--10-10-10-10-10-

A----------------------------------------
D----------------------------------------
G-10-10-10-10-10-10-10-10--7---7---------
B-11-11-11-11-11-11-10-10----10--8/10-8-6
e-10-10-10-10-10-10-8--8-----------------


A-------------
D-------------
G-------------
B-6-6--6--6--6
e-8-8--7--6--5


que les parece eso mis pequeños perrines?????
PD:  la cagan