Popurri sumo (bajo) (de Divididos)
(www.acordesytabs.com)
Todas los arreglos que puse pueden ser modificados a piacere, 
improvisen 
El sumazo empieza con el ojo blindado, 
que tiene una base mas o menos así, que se puede hacer con slap y pop


  'luces calientes...'
G|---7---7----7---7----7---7----7---7-------------------------------------|
D|---------------------------------------9---9----9---9----9---9----------|
A|-5---5----5---5--5-5---5----5---5---------------------------------------|
E|-------------------------------------7---7--7-7---7--7-7---7--7-7---7-9-| x2

  'mentira, mentira...'
G|-----------------------7---7----7---7---|
D|---7---7----7---7-----------------------|
A|---------------------5---5--5-5---5---5-|
E|-5---5--5-5---5---5---------------------| x2


despues viene el punteo:

G|----------------------|
D|------7--------5-4----|
A|----------5-5------5--|
E|-5-5------------------| repetir las veces necesarias


en la parte de 'mejor no hablar de ciertas cosas' estoy casi seguro que hace
esto pero desde ya muy velozmente.
los arreglos en esta base corren por tu cuenta:

G|---------------------------------|
D|---------------------------------|
A|-----------------------5---------|
E|-7-5-7-5-7-5-0-5-7-5-7---7-5-0-5-|

despues viene una parte con el punteito de arriba, y despues pasamos a 
la parte final con slap y pop para que suene mas podrido 
aun:
G|------------------------------------------------------------|
D|---9---9----9---9------5---5----5---5------2---2----2---2---|
A|------------------------------------------------------------|
E|-7---7--7-7---7---7--3---3--3-3---3---3--0---0--0-0---0---0-| repetir las 
veces necesarias

y eso es todo, ojala que les sirva