From hell they came (de Misfits)
(www.acordesytabs.com)

From Hell They Came - Misfits
tabbed by: ryan b

Riff A: (once)
Ab--5------0-----22222222-22222222--
Eb----------------------------------

Riff B: (once)
Ab-----------22222222-44444444-00000000-55555555-00000000-22222222-22222222--
Eb--00000000-----------------------------------------------------------------

Riff C: (once)
Ab-----------22222222-44444444-00000000-55555555-00000000-22222222-2222-2/4--
Eb--00000000-----------------------------------------------------------------

Riff D: (4 times)
Ab--55555555--00000000--22222222-2222-2/4--
Eb-----------------------------------------

Riff B: (once)
Riff C: (once)
Riff D: (3 times)
Riff A: (once)

Riff E: (once)
Ab--4444-4-----4--22222222--
Eb----------2---------------

Riff F: (once)
Ab--4444-4-----4--22222222-22222222--
Eb----------2------------------------

Riff B: (once)
Riff C: (once)
Riff D: (3 times)

Riff G: (once)
Ab--5--0--2--
Eb-----------