Give me someone i can trust (de Voodoo glow skulls)
(www.acordesytabs.com)

Song: Give me someone I can trust ( or Dame alguien enquien confiar )
Band: Voodoo Glow Skulls
Album: Firme
tabbed by: Carlos Pino

verse                                           x2
G:---------------------------------------------------------------
D:---------------------------------------------------------------
A:------7>--------7-6-7-9-7-6------------------------------
E:-4>-------4>-------------------------------------------------

chorus                                          x4
G:---------------------------------------------------------------
D:---------------------------------------------------------------
A:----2--4--6--4--2------------------------------------------
E:4>-------------------4>-------------------------------------

verse
chorus
I don`t know the bridge
verse
chorus

bridge 2
G:---------------------------------------------------------------
D:---------------------------------------------------------------
A:-7>--9--7-----1--2-2--1-2-2-----------------------------
E:--------------4------------------------------------------------

don`t know the solo part
verse
chorus
don`t know the final part