Psycho (de System of a down)
(www.acordesytabs.com)

Title: Psycho
Album: Toxicity

Regular tuning (EADGBE)


Use distortion.


Guitar intro after Bass intro...

E]--------------------------------------------------------------
B]-10--10--10--10--10--10--10--10--8--8--8--8--8--8--8--8-------
G]--------------------------------------------------------------X2
D]--------------------------------------------------------------
A]--------------------------------------------------------------
E]--------------------------------------------------------------

E]--------------------------------------------------------------
B]-10--10--10--10--10--10--10--10--10--10--10--10--10--10--10---
G]--------------------------------------------------------------
D]--------------------------------------------------------------
A]--------------------------------------------------------------
E]--------------------------------------------------------------


Psycho! Groupie! Cocaine! Crazy! Psycho! Groupie! Cocaine! Crazy! 

E]--------------------------------------------------------------
B]--------------------------------------------------------------
G]--------------------------------------------------------------
D]-2--2----2--2----2--2------2--2----2--2----2--2---------------
A]-2--2----2--2----2--2------2--2----2--2----2--2---------------
E]-0--0----0--0----0--0------0--0----0--0----0--0---------------


Psycho groupie cocaine crazy, psycho groupie coke...

E]--------------------------------------------------------------
B]--------------------------------------------------------------
G]--------------------------------------------------------------"STOP!"
D]-2-2-2-2-2-2-2-2-2-2-2-2-2-|-2-2-2-|-2-2-2-|-2-2-2-2-2-2-2-2-2
A]-2-2-2-2-2-2-2-2-2-2-2-2-2-|-2-2-2-|-2-2-2-|-2-2-2-2-2-2-2-2-2
E]-0-0-0-0-0-0-0-0-0-0-0-0-0-|-0-0-0-|-0-0-0-|-0-0-0-0-0-0-0-0-0


Do you really wanna think and stop...

E]--------------------------------------------------------------
B]--------------------------------------------------------------
G]--------------------------------------------------------------Let ring..
D]-2----------2----------2----------2----------2---------------- 
A]-2----------2----------2----------2----------2----------------
E]-0----------0----------0----------0----------0----------------


Psycho, groupie, cocaine crazzzzyyyyyy........ (Solo)

E]--------------------------------------------------------------
B]-10--8--10--11--10--11--10--8*--10--8--7--8--7--10--8--10-----
G]--------------------------------------------------------------
D]--------------------------------------------------------------
A]--------------------------------------------------------------
E]--------------------------------------------------------------

E]--------------------------------------------------------------
B]-10--11--15--11--10--11--10--8*--10--8--7--8--7--10--8--10--8-
G]--------------------------------------------------------------
D]--------------------------------------------------------------
A]--------------------------------------------------------------
E]--------------------------------------------------------------

E]-10*--8--10--11*--10--11--10--8*--10--8--7--8--7--10*--8--10*-
B]-10*--8--10--11*--10--11--10--8*--10--8--7--8--7--10*--8--10*-
G]--------------------------------------------------------------
D]--------------------------------------------------------------
A]--------------------------------------------------------------
E]--------------------------------------------------------------

E]-10--11--15*--11--10--11--10--8*--10--8--7--8--7--10----------
B]-10--11--15*--11--10--11--10--8*--10--8--7--8--7--10----------
G]--------------------------------------------------------------
D]--------------------------------------------------------------
A]--------------------------------------------------------------
E]--------------------------------------------------------------

Go Have fun trying to play thi song This is right.