Cheese (de Less Than Jake)
(www.acordesytabs.com)
Less Than Jake
Cheese
Terror Firmer Soundtrack
Tabbed by James Low whatisaturnip@yahoo.co.uk

Tuning- EADGBE

------------------------------------------------
------------------------------------------------
---------------------7--------------------------
---7-----------------7--------------------------
---7-----------------5--------------------------
---5--------------------------------------------

Don't call me Rich, don't call me George, just call me cheese that's 
what I am

------------------------------------------------
------------------------------------------------
-----------7-----------7------------------------
---7---4---7---7---5---7------------------------
---7---4---5---7---5---5------------------------
---5---2-------5---3----------------------------

Verse (SKA PART!!!)

--5----7----10----------------------------------
--5----7----10----------------------------------
------------------------------------------------
------------------------------------------------
------------------------------------------------
------------------------------------------------

Enjoy!!!!!!!!!!!