Rompe los cristales (de Platero y Tú)
(www.acordesytabs.com)
Hola a todos los q le mole Platero. He trancribido la 
guitarra rítmica, asi que el solo lo improvisais y vía

INTRO:
e:----------------------º
b:----------------------º
g:----------------------º
d:-9--7--5--7///////////º
a:-----------con palancaº
e:----------------------º

e:--------º
b:--------º
g:--------º
d:-2-2--2-ºx4
a:-2-2--2-º
e:-0-0--0-º

VERSO:
e:-----------------º
b:-----------------º
g:---------7-7-----º
d:-2-2--5--7-7--7--º
a:-2-2--5--5-5--7--º
e:-0-0--3-------5--º
Te has cansado, ya lo se...

e:-----------------------------º
b:-----------------------------º
g:---------------7-7-7-7-------º
d:-2-2-2-2-5-5-5-7-7-7-7-7-7-7-º
a:-2-2-2-2-5-5-5-5-5-5-5-7-7-7-º
e:-0-0-0-0-3-3-3---------5-5-5-º
Pero ya no aguantas más...

e:---------------º
b:-7-7-7--7-7-7--º
g:-7-7-7--7-7-7--º
d:-7-7-7--7-7-7--º
a:-5-5-5--5-5-5--º
e:---------------º
Bájense!  Bájense!

ESTRIBILLO:
e:-----------------------------------------------------------
b:-----------------------------------------------------------
g:-----------------7-7-7-7-7-7-7-7-5-5-5-5-5-5-5-5-9-9--7-7--
d:-5-5-5-5-5-5-5-5-7-7-7-7-7-7-7-7-5-5-5-5-5-5-5-5-9-9--7-7--
a:-5-5-5-5-5-5-5-5-5-5-5-5-5-5-5-5-3-3-3-3-3-3-3-3-7-7--5-5--
e:-3-3-3-3-3-3-3-3-------------------------------------------
P.M...............................................
  Da otro paso no debes parar, rompe los cristales...

e:---------------------------------------------------------------------
b:---------------------------------------------------------------------
g:-----------------7-7-7-7-7-7-7-7-5-5-5-5-5-5-5-5-9-9--7-7--5-5--7-7--
d:-5-5-5-5-5-5-5-5-7-7-7-7-7-7-7-7-5-5-5-5-5-5-5-5-9-9--7-7--5-5--7-7--
a:-5-5-5-5-5-5-5-5-5-5-5-5-5-5-5-5-3-3-3-3-3-3-3-3-7-7--5-5--3-3--5-5--
e:-3-3-3-3-3-3-3-3-----------------------------------------------------
P.M................................................
Grita al aire si no quiere oir...

ANTES DE VERSO 2:
e:--------------------º
b:--------------------º
g:--------------------º
d:-2-2--2///\2-2--2-º
a:-2-2--2///\2-2--2-º
e:-0-0--0///\-0--0-º
         palanca

VERSO 2: igual que verso 1

ESTRIBILLO

ANTES Y DURANTE EL SOLO:
e:---------------------------------------------------------------------
b:---------------------------------------------------------------------
g:---------------------------------------------------------------------
d:---5xxxx--5xxx--5------------------5/7xxxx5/7xxx5/7---5xxxx--5xxx--5-
a:-0h3xxxx0h3xxx0h3---5xxxx--5xxx--5-3/5xxxx3/5xxx3/5-0h3xxxx0h3xxx0h3-
e:------------------0h3xxxx0h3xxx0h3-----------------------------------

Y estos es todo, nada del otro mundo. Saludos a July (a ver si me compras 
la Kramer)a Peasadiya (ARRASSSSSSSSSS!!!!) Y a todo el que 
disfrute tocando este tema.   
                                            MURCIÉLAGO