Didnt want none (de Queers)
(www.acordesytabs.com)

-------------------------------------------------------------------------------
			     dident want none - the queers			
-------------------------------------------------------------------------------

By:christopher taylor

G|---------------------------------------------------------------------------|
D|---------------------------------------------------------------------------|
A|----7--5-------------------------------------------------------------------|
E|--3------5-----------------------------------------------------------------|

G|---------------------------------------------------------------------------|
D|---------------------------------------------------------------------------|
A|---5-----------------------------------------------------------------------|
E|-2-------------------------------------------------------------------------|


===============================================================================