Junkie (de Lynyrd skynyrd)
(www.acordesytabs.com)

e ----------------------------------
b ----------------------------------     intro
g ---------------------------------- repeat a few times
d 2---------------------------------
a 2-2-2-2-2-2-2--------5--5-7h5-----
e 0-0-0-3-0-3-0-/7-5-7---------7h5-3


e---0----3------
b---0----3-------
g-----------------
d----------------
a -------------5/
e 0----3---7h5----

e
b
g                          solo backing
d
a 2 22 2  22  5   7   5
e 0 00 0  00  3 0 5 0 3

e
b     7
g     6
d     5
a 2 2 7    7 5         repeat
e 0 0          7 5 3