American idiot (de Green day)
(www.acordesytabs.com)

(Gtr.2)(radio sound guitar)
e|-------------------------
B|-------------------------
G|---66----6---------------
D|66-66-22-6-6-2-----------
A|66-44-22-4-6-2-----------
E|44----44---4-4-----------
 (Gtr.1 after Gtr.2 plays riff once)
e|---------------0-----------------------------0-----
B|---------------0-----------------------------0-----
G|-----66----6---0----66----6--------66----6---0-----
D|2-66-66-22-6-6-0-66-66-22-6-6-2-66-66-22-6-6-0-----
A|2-66-44-22-4-6-0-66-44-22-4-6-2-66-44-22-4-6-0-----
E|4-44----44---4---44----44---4-4-44----44---4-------


Don't wanna be an american idiot!

e|0--------------------------
B|0--------------------------
G|0----66----6---------------
D|0-66-66-22-6-6-2-----------
A|0-66-44-22-4-6-2-----------
E|--44----44---4-4-----------

Don't want a nation under the new media.

e|0--------------0-----------
B|0--------------0-----------
G|0----66----6---0-----------
D|0-66-66-22-6-6-0-----------
A|0-66-44-22-4-6-0-----------
E|--44----44---4-------------

And can you hear the sound of hysteria?

e|0-------------------------
B|0-------------------------
G|0----66----6---------------
D|0-66-66-22-6-6-2-----------
A|0-66-44-22-4-6-2-----------
E|--44----44---4-4-----------

The subliminal mindf**k america!
e|0--------------0-----------
B|0--------------0-----------
G|0----66----6---0-----------
D|0-66-66-22-6-6-0-----------
A|0-66-44-22-4-6-0-----------
E|--44----44---4-------------

(chorus)
e|--------------------------
B|--------------------------
G|---6-----------8----------
D|---6-----6-----8----------
A|---4(x10)6-----6(x10)-----
E|0/8------4(x10)-----------(x2)(only slide 0/8 first time)

(wait for drums)

e|----------------------------0-----
B|----------------------------0-----
G|---66----6--------66----6-6-0-----
D|66-66-22-6-6-2-66-66-22-6-6-0-----
A|66-44-22-4-6-2-66-44-22-4-6-0-----
E|44----44---4-4-44----44---4-------

Well maybe I'm the faggot america!

e|0--------------------------
B|0--------------------------
G|0----66----6---------------
D|0-66-66-22-6-6-2-----------
A|0-66-44-22-4-6-2-----------
E|--44----44---4-4-----------

I'm not a part of a redneck agenda

e|0--------------0-----------
B|0--------------0-----------
G|0----66----6---0-----------
D|0-66-66-22-6-6-0-----------
A|0-66-44-22-4-6-0-----------
E|--44----44---4-------------

Now everybody do the propoganda!

e|0--------------------------
B|0--------------------------
G|0----66----6---------------
D|0-66-66-22-6-6-2-----------
A|0-66-44-22-4-6-2-----------
E|--44----44---4-4-----------

And sing along to the age of paranoia

e|0--------------0-----------
B|0--------------0-----------
G|0----66----6---0-----------
D|0-66-66-22-6-6-0-----------
A|0-66-44-22-4-6-0-----------
E|--44----44---4-------------

(chorus)
e|--------------------------
B|--------------------------
G|---6-----------8----------
D|---6-----6-----8----------
A|---4(x10)6-----6(x10)-----
E|0/8------4(x10)-----------(x2)(only slide 0/8 first time)

(wait for drums)

e|---------------0-----------------------------0-----
B|---------------0-----------------------------0-----
G|-----66----6---0----66----6--------66----6---0-----
D|2-66-66-22-6-6-0-66-66-22-6-6-2-66-66-22-6-6-0-----
A|2-66-44-22-4-6-0-66-44-22-4-6-2-66-44-22-4-6-0-----
E|4-44----44---4---44----44---4-4-44----44---4-------


(solo)
e|-----------------------------------------------------------8--9-8
B|-3/10-10-----6-4-6----/10-6-4-----------------------9--11--------
G|-3/10-10-----6-4-6----/10-6-4-3-3333-5-6-5-33-5/8-88-88--88-88---
D|-----------------------------------------------------------------
A|-1/8--8-(x8)-8-6-8(x8)/8--8-6-5----------------------------------
E|-----------------------------------------------------------------

e|-----------------------------------------------------------------
B|-3/10-10-----6-4-6----/10-6-4-------------------9(let ring)------
G|-3/10-10-----6-4-6----/10-6-4-3-3333-5-6-5-3-5/8-----------------
D|-----------------------------------------------------------------
A|-1/8--8-(x8)-8-6-8(x8)/8--8-6-5----------------------------------
E|-----------------------------------------------------------------

(Gtr.2)(radio sound guitar)
e|-------------------------
B|-------------------------
G|---66----6---------------
D|66-66-22-6-6-2-----------
A|66-44-22-4-6-2-----------
E|44----44---4-4-----------(x6)
(After this riff^^ x2 start singing)

Don't wanna be an american idiot:
(Gtr.1)
e|----0------
B|----0------
G|----0------
D|----0------
A|----0------
E|-----------(x6)

(silent)
Is going out to idiot america!


(chorus)
e|--------------------------
B|--------------------------
G|---6-----------8----------
D|---6-----6-----8----------
A|---4(x10)6-----6(x10)-----
E|0/8------4(x10)-----------(x2)(only slide 0/8 first time)


(Gtr.2)(radio sound guitar)
e|-------------------------
B|-------------------------
G|---66----6---------------
D|66-66-22-6-6-2-----------
A|66-44-22-4-6-2-----------
E|44----44---4-4-----------
              (both guitars play from here)
e|-------------0--------------0--------------0-
B|-------------0--------------0--------------0-
G|-------------0----66----6---0----66----6---0-
D|-------------0-66-66-22-6-6-0-66-66-22-6-6-0-
A|-------------0-66-44-22---6---66-44-22---6-0-
E|---------------44----44---4---44----44---4---

(Gtr.2)(radio sound guitar)
e|-------------------------
B|-------------------------
G|---66----6---------------
D|66-66-22-6-6-2-----------
A|66-44-22-4-6-2-----------
E|44----44---4-4-----------

(both Gtrs)

e|--------------------
B|--------------------
G|----------------66--
D|----------------66-6
A|----------------44-6
E|-------------------4