Stellar intro (de Incubus)
(www.acordesytabs.com)



this is the intro of stellar.enjoy. dominguez_fer@hotmail.com

b> bend

--------------------------------
--------------------------------
----9-9/-11b/-6b----------------            then.....
----9-9/-11b/-6b-6-----6-6---6-7
--0----------------4-4-----5----
--------------------------------

--------------------------------
--------------------------------
----9-9/-11b/-6b----------------             that all...
----9-9/-11b/-6b-6-----6-6-----6
--0----------------4-4-----7-7--
--------------------------------

credits> brad porter

later.