Simple Kind Of Man (de Lynyrd Skynyrd)
(www.acordesytabs.com)
---------------------        all standerd tuning (e,a,d,g,b,e) 
-----------1---------                 
-------0-----0---0---
-----2---2-----2-----
-023-----------------
---------------------- 


-----------------
-----------------
---------0-------
-----0-----0---0-
---2---2-----2---
-3---------------- 


---------------0-------
---------1-------1---1---
-----2-----2-------2---2-
---2---2-----2------------
-0-----------------------
------------------------- then do the top again..... 
 
-------------------------------------------------------
--------------------------------------------------------
---------------------------------------------------------
--5---5-5---^----------------^-------------------------------
--3---3-3---5--3~~--5---5-5--5-3~~-7--7-7-----5---7--------------
--------------------3---3-3--------5--5-5---0-3-0-5-----------------