Whats Your Name (de Lynyrd Skynyrd)
(www.acordesytabs.com)
What's Your Name
Lynyrd Skynyrd
posted Jonathan Poet82@hotmail.com

I don;t know if this is right, I got it from a friend who got 
it from some old magazine.  so best of luck to ya, Jon

Intro Riff

gt1
e|---------------------------------------------------------|
B|-5-------------------------------------------------------|
G|-5---6/7---105-7-7-7------------------------------------|
D|-5---6/7-7-105-7-7-7------------------------------------|
A|---3-4/5-5-9-7-5-5-5---4-5---7-5-7-5--------------------|
E|----------------------0-2-3-3-3-----3--------------------|
gt2
e|---------------------------------------------------------|
B|---------------------------------------------------------|
G|-5---6/7----------------------------------12/------------|
D|-5---6/7-7-9-7-109-7-7-4-7---------------12/-----2------|
A|-3---4/5-5-5-5-8-7-5-5---5---4-5---7-5-5-----3-4-0------|
E|---0------------------------0-2-3-3-3-3-3----------------|
gt3
e|-----------------------------------------3---------------|
B|-----------------------------------------3---------------|
G|-5------------------------------0---0----4-------2-----2-|
D|-5---6/7-9-7-109-7-7-4-7---------2---2---2-54-2-----2-|
A|---3-4/5-5-5-8-7-5-5---5---4-5------------0-32---3-4-0-|
E|--------------------------0-2-3--------------------------|