La flaca Pili y el negro Tomás (de Guasones)
(www.acordesytabs.com)
Por Emiliano Cobo

Base:
E---------------------------------------------------------------------------------------------------------
B---------------------------------------------------------------------------------------------------------
G------------7---7---4------------7---7---4---------6--------7---7---4------------------------------------
D------------7---7---5------------7---7---5------------------7---7---5------------------------------------
A---5h7p5---------------5h7p5---------------5h7-----7--5--------------------------------------------------
E---------------------------------------------------------------------------------------------------------

Riff 1
E-------------------------------7-5-----------------------------------------------------------------------
B----------------5-7---7-5---7-------8-7---7p5---5-7-5---5------------------------------------------------
G---------4-6-7------------7-------------------7-------7-----7(9)7---7---7---4----------------------------
D--4-5-7-------------------------------------------------------------7---7---5----------------------------
A---------------------------------------------------------------------------------------------------------
E---------------------------------------------------------------------------------------------------------

Estos riffs son, en general, muy parecidos

Riff 2                   Riff 3         Riff 4                    Riff 5                 Riff 6
E----------------------/---------------/-----------------------/-------------------/-----------------------
B-------------------7--/----10-7-10-7--/-----------------------/-------------------/----10-----------------
G--7-9-9(11)-9-7-9-----/---------------/----7-9-7-9(11)-9-7-7--/----9(11)-9-7------/----9(11)9-7-7(9)-7----
D----------------------/---------------/-----------------------/----------------9--/-----------------------
A----------------------/---------------/-----------------------/-------------------/-----------------------
E----------------------/---------------/-----------------------/-------------------/-----------------------

Riff 7                  Riff 8                  Riff 9
E---------------------/------------------------/-------7-10-7---------------------------
B---------------------/------------------10-7--/-----7--------10-7---------------------
G--7-9-9(11)-9-7-9-7--/----7-9-9(11)-9-7-------/----7-------------------------------
D---------------------/------------------------/------------------------------------
A---------------------/------------------------/-------------------------------------
E---------------------/------------------------/--------------------------------------


Base
Por las calles de la muerte, donde ya no hay más lugar,
Donde ni siquiera Monalisa se atreve nena a mirar.
Por las calles sin sentido, por las de la realidad,
Donde se conocieron, una noche como hoy, la flaca Pili y el negro Tomás

Riff 1

Base
Ella le dijo, como acostumbrábamos decir,
             Riff 2                     Riff 3
Llevame a ver las estrellas,
                           Riff 4
Llevame a decir

Si si si si
Riff 5     Riff 6

En el estribillo se usa la misma base, nada más que varia un poco

Ha Ha Ha Ha  La flaca Pili y el negro Tomás ( 2 veces)

Base
“De algún lado te conozco”entre dientes el negro sucio susurro
                           Riff 3                            Riff 7
y aunque todos rian lo que digo y sin sentido, todavía creo a simple vista en el amor
                                             Riff 7                                  Riff 9
no es de un chute que te tengo si de viaje recién vengo, se que soy un soñador.
                                                        Riff 8
Con respecto a tu propuesta no vaciles mi respuesta que es 100% si si si si
                                            Riff 3               Riff 5     Riff 6
La estrofa 3 es igual a la 2