Once upon a time in the west (de Dire straits)
(www.acordesytabs.com)
G|--------|--------|--------|----|--------|--------|--------|----|-
D|--------|--------|--------|----|--------|--------|--------|----|-
A|--------|--------|----7---|55--|--------|--------|----7---|55--|-
E|5------5|5------5|5-8----5|--8-|5------5|5------5|5-8----5|--8-|-

  
G|--------|----|--------|--------|--------|----|--------|----|--------|-
D|--------|----|--------|--------|--------|----|--------|----|--------|-
A|--------|--5-|--5-----|------23|5------5|x75-|--------|775-|3---3--3|-
E|5------5|5--5|3---3--3|3----3--|--------|----|5------5|---5|--3-----|-

                                                   __1.+2.__
                                                            |
G|----|--------|--------|-------2|--------|--------|--------|-
D|----|--------|--------|----7---|--------|--------|--------|-
A|3---|--------|--------|5-8-----|--2-5--5|--------|--------|-
E|--75|5-8-5--5|5----558|--------|3-------|5-8-5--5|5----030|-

  ____3.__
          |
G|--------|-
D|--------|-
A|--------|-
E|5---5785|-


repeat the verse twice (very small variations) then into the bridge:
 
G|--------|--------|--------|--------|--------|--------|--------|-
D|--------|--------|33--33--|33--33--|--------|--------|--------|-
A|55--55--|55--55-3|---3---3|---3----|--------|--------|--------|-
E|---5---5|---5----|--------|-------3|55-133-0|1-------|-----030|-