All the time (de Green day)
(www.acordesytabs.com)

Green Day 
All the time         transcribed by david sotomayor

100 percent correct
intro(part one)

-----------------------------------------
-----------------------------------------
9-9--7--------------------------------------
9-9--7--7------------------------------------
7-7--5--7------------------------------------
--------5---------------------------------



verse
-------------------------------------------
-------------------------------------------
-------------------------------------------
-6-7--7--7---5----------------------------------
-6-7--7--7---5----------------------------------
-4-5--5--5---3----------------------------------

bridge
-------------------------------------------------
-------------------------------------------------
----6-7-6-----4-5-4------------------------------------
-7--6-7-6--5--4-5-4--------------------------------------
-7--4-5-4--5--2-3-2--------------------------------------
-5---------3---------------------------------------