You wanted the best (de Kiss)
(www.acordesytabs.com)
Eb Tuning

Key:
/   = slide up
   = slide down
h^  = hammer-on
p^  = pull-off

Fig. 1

Gb|--------------------------------------------------------------------------------------|
Db|--------------------------------------------------------------------------------------|
Ab|-------------------5-5---0-0-0-0-0-0-0-0-------5---0-0-0-0-0-0-0-0--------------------|
Eb|--2h^4--/----3-3-------------------------3-3----------------------------------------|

Fig. 1 cont.

Gb|--------------------------------------------------------------------------------------|
Db|--------------------------------------------------------------------------------------|
Ab|------5---0-0-0-0-0-0-0--------------------0-0-0-0-0-0-0-0---3-0-3----------------|
Eb|--3-3--------------------12-14p^12--12h^14-------------------------------3-5---------|
                                                                           stop^
Fig. 2

Gb|------------------14------------------------------------------------------------------|
Db|---------------------14---------------------------------------------------------------|
Ab|------5-----12/14-------0--0-0--------------5----------5-------------------------5----|
Eb|--3-3---5---------------------0--3h^5--3-3---5---3-3---5---0--/---3-3-3-3---------|
         stop^                                 stop^         ring^               stop^
Fig. 3

Gb|--------------------------------------------------------------------------------------|
Db|--------------------------------------------------------------------------------------|
Ab|-------------------------5----------------------------5---------------------------5---|
Eb|--5-5-5-5-5-5-5-5----3-3------5-5-5-5-5-5-5-5---3-3-3-----0-0-0-0-0-0-0-0---3-3-3---5-|
    <------3X-------->          <------3X-------->          <---------3X----->
Fig. 4

Gb|--------------------------------------------------------------------------------------|
Db|--------------------14/17/17------------------------------------------------------|
Ab|--0-0-0-0-0-0-0-0-----------------0-0-0-0-0-0-0-0--------0-0-0-0-0-0-0-0--------------|
Eb|--------------------------------------------------0-3-0--------------------1-3-3------|
    <-----6X--------->
Fig. 4 cont.

Gb|--------------------------------------------------------------------------------------|
Db|--------------------17h^19--17/19--17/19----------------------------------------------|
Ab|--0-0-0-0-0-0-0-0-------------------------0-0-0-0-0-0-0-0---------5-5--------------5-|
Eb|----------------------------------------------------------/--3-3-----0-/--3-3-3-3---|
    <-------3X------->                      <-------3X------>        ring^
Fig. 5

Gb|--------------------------------------------------------------------------------------|
Db|--------------------------------------------------------------------------------------|
Ab|-----------------------5--------------------------5--------------------------5--------|
Eb|--5-5-5-5-5-5-5-5--3-3-----5-5-5-5-5-5-5-5--3-3-3----0-0-0-0-0-0-0-0---3-3-3-----5---|
    <-----3X-------->        <------3X------->         <------3X------->         stop^
Fig. 6A

Gb|--------------------------------------------------------------------------------------|
Db|--------------------------------------------------------------------------------------|
Ab|--2-3-5-3-2-0-------------7--------------------3-3-3-3-3-3-3-3------------------------|
Eb|--------------3-----0-0-0----0-0-0-2-3-2-0-0------------------------------------------|
    <---------------------------2X--------------------------------->
Fig. 6B

Gb|--------------------------------------------------------------------------------------|
Db|--------------------------------------------------------------------------------------|
Ab|--2-3-5-3-2-0-------------7--------------------5-5-5-5-5-5-5-5---1-1-1-1-1-1-1-1------|
Eb|--------------3------0-0-0----0-0-0-2-3-2-0-0-----------------------------------------|

Fig. 6B cont.

Gb|--------------------------------------------------------------------------------------|
Db|--------------------------------------------------------------------------------------|
Ab|---0-0-0-0-0-0-0-0---3/2-0-3/2-0-2------------------------------5---------------------|
Eb|------------------------------------0-0-0-0-0-0-0-0-----3-3-3-3-----------------------|
     <-----7X--------->                                          
Fig. 7A
                                                                     Repeat Fig. 7A 2x
Gb|--------------------------------------------------------------------------------------|
Db|--------------------------------------------------------------------------------------|
Ab|-------------------------5------------------------5--------------------------5--------|
Eb|--5-5-5-5-5-5-5-5----3-3----5-5-5-5-5-5-5-5--3-3-3---0-0-0-0-0-0-0-0----3-3-3---------|
    <-----3X-------->         <-------3X------>        <--------3X------>
Fig. 7B

Gb|--------------------------------------------------------------------------------------|
Db|--------------------------------------------------------------------------------------|
Ab|--------------------------5-----------------------5---------------------5-5-5-5-------|
Eb|--5-5-5-5-5-5-5-5----3-3----5-5-5-5-5-5-5-5--3-3-3---0-0-0-0-0-0-0-0------------5/----|
    <-------3X------>         <-------3X------>        <-------3X------>       

You Wanted the Best - Gene Simmons

[Fig. 1]
All right, Yeah-eyeah-eyeah, Hey!

[Fig. 2]
Make-up or brake-up cause,cause we've seen better days						
Yeah! Don't have to drag you kicking and screaming off the stage
Listen don't do me favors, don't show your face
Don't tell me not to play, cause it's not your place
The fans wanted us to play, we hear and we obey

[Fig. 3]
You wanted the best (yeah you got it)
and you you got the best (all right yeah-eyeah-eyeah)
ahh-ahhhh-ahh, ahh-ahhh-ahhh

[Fig. 4]
Don't give me glances, Don't give me lies
Well then, don't give me sweet talk pete just testify
Hey, you livin' fairy tales, just a fallen star
Right, well who died and made you king just who do you think you are
Everything's got way out of hand,but your wish is our command

[Fig. 5]
You wanted the best (your wish is our command yeah-eyeah)
you got the best  (you got the best yeah-eyeah-eyeah)
ahh-ahhhh-ahh, ahh-ahhh-ahhh

[Fig. 6A&6B] (solo)
Everything's got way out of hand, but your wish is our command

[Fig. 7A 2x &7B]
You wanted the best, (we here and we obey yeah-eyeah)
You got the best, (you got it ,that's right)
ahh-ahhh-ahh, ahh-ahhh-ahh

You wanted the best, (yeah you got the best,you got the best)
you got the best, ( yeah-eyeah-eyeah)
ahh-ahhhh-ahh, ahh-ahhh-ahh