Sabbra cadabra (de Metallica)
(www.acordesytabs.com)
TUNE DOWN TWO WHOLE STEPS:
4=C  3=F  2=Bb  1=Eb

INTRO
|----------|-----------|---------|-------------------------------------|
|----------|-----------|---------|-------------------------------------|
|----------|-----------|---------|-------------------------------------|
|----------|-----------|--4/-----|--/9---9---9--9--9--9---9---9--9--9--|

|-----------------------------------------|-----------------------------------------|
|-----------------------------------------|-----------------------------------------|
|-----------------------------------------|-----------------------------------------|
|--9---9---9---9---9---9---9---9---9---8--|--7---7---7---7---7---7---7---7---7---7--|

|-----------------------------------------|-----------------------------------------|
|-----------------------------------------|-----------------------------------------|
|-----------------------------------------|-----------------------------------------|
|--7---7---7---7---7---7---7---7---7---6--|--6---6---6---6---6---6---6---6---6---6--|

|-----------------------------------------|-----------------------------------------|
|-----------------------------------------|-----------------------------------------|
|-----------------------------------------|-----------------------------------------|
|--6---6---6---6---6---6---6---6---6---5--|--4---4---4---4---4---4---4---4---4---4--|

|---------------------------------------|-----------------------------------|
|---------------------------------------|-----------------------------------|
|---------------------------------------|-----------------------------------|
|--4---4---4---4---4---4---4---4/7---8--|--9---9---9-----9---9---7---8---9--|

|--------------------------------------------------|
|--------------------------------------------------|
|--------------------------------------------------|
|--11---11---11---11---11---11---11---9---1O---11--|

|---------------------------------------------------|------------------------------------|
|---------------------------------------------------|--------------9/11---9---7----------|
|---------------------------------------------------|--9---9---9------------------9---7--|
|--12---12---12---12---12---12---12---12---11---12--|------------------------------------|

|-----------------------------------|---------------------------------------------|
|-----------------------------------|---------------------------------------------|
|-----------------------------------|---------------------------------------------|
|--9-----9---9---9---9---7---8---9--|--11---11---11---11---11---11---9---1O---11--|

|---------------------------------------|-------------------------------------|
|---------------------------------------|-------------------------------------|
|---------------------------------------|--9---9---9---9-H1O---9--------------|
|--12---12---12---12---12	---12---12--|--------------------------12-----9--|

|----------------------------------|-------------------------|
|*---------------------------------|-------------------------|
|*--2---4-----4-----4---4---2------|--2---4-----4-----4---4--|
|-------------------------------4--|-------------------------|

                                     1________________________________
|-----------------------------------|---------------------------------|
|-----------------------------------|--------------------------------*|
|--2-----1-----2-----1--------------|--2---4-----4-----4---4---2-----*|
|--------------------------4-----2--|------------------------------4--|

2___________________________________
|-----------------------------------|
|--------------------------------2--|
|--4---4-----4---4---2---3-H-4------|
|-----------------------------------|

1st, 2nd, 3rd verses
 
 1.feel so good...                     feel so...
2.3feel so happy...                    met that...
|-----------------------------------|----------------------------------|
|*-------------------------------2--|-------------------------------2--|
|*--4---4-----4---4---2---3-H-4-----|--4---4-----4---4---2---3-H-4-----|
|-----------------------------------|----------------------------------|

   love that...                         on my mind
   when we're...                        out of this world
|------------------------------------|----------------------------------|
|---------------------------------2--|-------------------------------2--|
|--2-----2-----2---2---2---3-H-4-----|--4---4-----4---4---2---3-H-4-----|
|------------------------------------|----------------------------------|

        she gives me...                       night and day
        feels so good...                      she's all mine
|------------------------------------------|----------------------------------|
|---------------------------------------2--|-------------------------------2--|
|--4-----4-----4-----4-----2-----3-H-4-----|--4---4-----4---4---2---3-H-4-----|
|------------------------------------------|----------------------------------|

   never gonna...                              going away
   gonna love that...                          end of time
|-------------------------------------------|-----------------------------------------|
|----------------------------------------2--|-----------------------------------------|
|--2-----2-----2-----2-----2-----3-H-4------|--4-----4-----4-----4-----4-----2--------|
|-------------------------------------------|--------------------------------------4--|

CHORUS
(2nd time substitute BASS FILL 1)

                                   someone to love me
                                   someone to live for
|-------------------------------|---------------------------------|
|----------------4---4----------|--4---2-----------2---4---4---4--|
|-------------------------------|----------4---2------------------|
|--2-----2---2-----------2---2--|---------------------------------|

                               you
|---------------------------------|
|--6---6-----------6--------------|
|---------------------------------|
|----------4---4-------4---4---4--|

BASS FILL 1
|----------------------------------|-----------------------------------|---------------|
|----------------4---4--2-H-4---2--|--4---2-------2---2---4---4--2-----|------------6--|
|----------------------------------|----------4---------------------4--|---------------|
|--2-----2---2---------------------|-----------------------------------|--4---4--4--4--|

|-----------------------|
|-----------------------|
|--------------4-----7--|
|--4-----7--------------|

   know she makes...                                                        yeah    
   love me till...                                                          yeah
|-----------------------|--------------------------------|-------------------------|
|--6-----4--------------|-----------------------------2--|-------------------------|
|--------------7-----6--|--2---4-----4-----2---3-H-4-----|--2---4-----4-----4---4--|
|--4--------------------|--------------------------------|-------------------------|

                   al  right
                                   hey     hey   hey           yeah                    she
|-----------------------------|-----------------------------|-------------------------------|
|-----------------------------|-----------------------------|----------------4---4----------|
|--2---1---2---1--------------|--4---4-----4-----4---2------|-------------------------------|
|------------------4---2------|--------------------------4--|--2-----2---2-----------2---2--|

                                                    1__________________________
   someone who...                                      love me...
   makes me feel...                            it's
|--------------------------|------------------------|------------------------|
|----------------4---------|------------------------|------------------------|
|--------------------------|-----------------6------|--6-----6---------------|
|--2-----2---2---2-----2/--|--/4-----4---4---4------|--4-----4-----4-----4--|

_____________________________________________________________
|---------------------------------|-------------------------|
|------------------------------2--|-------------------------|
|--2---4-----4-----2---3-H-4------|--2---4-----4-----4---4--|
|---------------------------------|-------------------------|

______________________________________________________________________ 
|-----------------------------------|---------------------------------|
|-----------------------------------|------------------------------2--|
|--2-----1-----2-----1--------------|--4---4-----4-----2---3-H-4------|
|--------------------------4-----2--|---------------------------------|

______________________________________________________________________________________
|---------------------------------|-------------------------|------------------------|
|---------------------------------|-------------------------|------------------------|
|--2---4-----4-----4---4---2------|--2---4-----4-----4---4--|--2---1---2---1---------|
|------------------------------4--|-------------------------|-----------------4---2--|

                                  good to know...
_______________________________ 2______________________
|------------------------------|-----------------------|
|-----------------------------*|--6-----4--------------|
|--4---4-----4-------------2--*|--------------7-----6--|
|------------------2---4-------|--4--------------------|

INTERLUDE
|--------|----------|-----------|----------|-----------------|----------|-----------------|
|--------|----------|-----------|----------|-----------------|----------|-----------------|
|--4-----|----------|--(4)-----|----------|--4-----4-----4--|----------|--4-----4-----4--|
|--------|----------|-----------|----------|-----------------|----------|-----------------|

                                                              1.2_________________ 
|-----------|------------------|-----------|-----------------|-------------------|
|-----------|*-----------------|-----------|-----------------|--6-----4----------|
|--(4)-----|*--4-----4-----4--|--2-----3--|--4-----4-----4--|--------2-----7/3--|
|-----------|------------------|-----------|-----------------|--4----------------|

3___________
|-----------|---------------------|-----------------|-------------|-------------|
|-----------|---------------------|-----------------|-------------|-------------|
|--9-H-11/--|--/16-----14-----11--|--9-----7-----6--|--16-----14--|--11-----9--|
|-----------|---------------------|-----------------|-------------|-------------|

|------------------------------------------------------|
|*-----------------------------------------------------|
|*--5-H-7-------7-----7---5-H-7------------------------|
|-----------O---------------------O---O---3---2-----2--|

   (3rd time substitute BASS FILL 2) 
   play 4 times
|-----------------------------------------------------------|
|----------------------------------------------------------*|
|--5-H-7-----------7---------------5-----5-----------------*|
|----------O---O-------5-H-7---O-------------7---2---3---2--|

       I am ...                          u  ni  ver   sal... 
|-------------------------------------|---------------------------------------|
|-------------------------------------|---------------------------------------|
|--7-----7----------------------------|--5-----5---5-----5--------------------|
|--O-----O-----3-----3---3-----3-H-5--|----------------------5-----7---5---3--|

|-------------------------------------------------------|
|-------------------------------------------------------|
|--5-H-7---------7-----7---5-H-7------------------------|
|----------O-----------------------O---O---3---2-----2--|

|-----------------------------------------------------------|
|-----------------------------------------------------------|
|--5-H-7-----------7---------------5-----5------------------|
|----------O---O-------5-H-7---O-------------7---2---3---2--|

BASS FILL 2
|-----------------------------------------------------------------|
|------------------------7-H-9-P-7----------------4---5---4--(5)--|
|--5-H-7-----------7----------------5-----5-----------------------|
|----------O---O------------------------------7-------------------| 

     destruction of...                            is my one...
|-------------------------------------|----------------------------------------------------|
|-------------------------------------|--------------------5--7--7--7--7--7--7--7---5------|
|--7-----7----------------------------|--5-----5--5-----7-------------------------------7--|
|--O-----O-----3-----3---3-----3-H-5--|----------------------------------------------------|

|-------------------------------------------------------|
|-------------------------------------------------------|
|--5-H-7---------7-----7---5-H-7------------------------|
|----------O-----------------------O---O---3---2-----2--|

|-----------------------------------------------------------|
|-----------------------------------------------------------|
|--5-H-7-----------7---------------5-----5------------------|
|----------O---O-------5-H-7---O-------------7---2---3---2--|

        I've lived...
|---------------------------------------------------------|
|---------------------------------------------------------|
|------------------7-H-1O---------------------------------|
|--8-----8---8--------------7-----7-----7--7--7--7--7--5--|

   found out...
|-----------------------------------------------------------|
|-----------------------------------------------------------|
|-----------------------------------------------------------|
|--3-----3--3--3-----3-----5-----5--5--5--5--5--5--3--3--3--|

|-------------------------------------------------------|
|-------------------------------------------------------|
|--5-H-7---------7-----7---5-H-7------------------------|
|----------O-----------------------O---O---3---2-----2--|

|-----------------------------------------------------------|
|-----------------------------------------------------------|
|--5-H-7-----------7---------------5-----5------------------|
|----------O---O-------5-H-7---O-------------7---2---3---2--|

             the thoughts...
|-------------------------------------------------------------|
|-------------------------------------------------------------|
|------------------7--1O--7-----------------------------------|
|--8-----8---8---------------8-----7-----7---7---7---1O---7--|

   unborn child...
|-----------------------------------------------------------|
|-----------------------------------------------------------|
|-----------------------------------------------------------|
|--3-----3---3---3-----3---3---5-----5---5---5---5---5---7--|

                                                           you've gotta...
|-----------------------------------------------|--------------------------|
|--------------------------------5--------------|--------------------------|
|--5---7---------5---7---5---7-------7---5------|--5---7-------------------|
|------------7-------------------------------7--|--------------------------|

BASS FIG 1
                             hey                         I'm talking...
|-----------------------------------------------|-----------------------|
|--------------------------------5--------------|-----------------------| (end BASS FIG 1)
|--5---7---------5---7---5---7-------7---5------|--5---7----------------|
|------------7-------------------------------7--|------------7----------|

w/BASS FIG 1 (3 1/2 times)

   you have to...     soul live on
|------------------|-----------------------------------|
|------------------|-----------------------------------|
|------------------|--5---7-----7-----------5-H-7---5--|
|------------------|------------------7----------------|

|-----------------------------------------|---------------------------------------------|
|-----------------------------------------|---------------------------------------------|
|--7-----7---5-----5----------------------|--7-----7---7---5-----5----------------------|
|----------------------5-----5---3-----3--|--------------------------5-----5---3-----3--|

|---------------------------------------------|-----------------------------------------|
|---------------------------------------------|-----------------------------------------|
|--7-----7---7---5-----5----------------------|-----------------------------------------|
|--------------------------5-----5---3-----5--|--7--7--7--7--7--7--7--7--7--7--7--7--7--|

|-----------------------------------------------------------|
|-----------------------------------------------------------|
|-----------------------------------------------------------|
|--9-----9-----9-----9-----9-----9-----9-----9-----9-----9--|

|-----------------------------------------------------------|
|-----------------------------------------------------------|
|-----------------------------------------------------------|
|--9-----9-----9-----9-----9-----9-----9-----9-----9-----8--|

|-----------------------------------------------------------|
|-----------------------------------------------------------|
|-----------------------------------------------------------|
|--7-----7-----7-----7-----7-----7-----7-----7-----7-----7--|

|-----------------------------------------------------------|
|-----------------------------------------------------------|
|-----------------------------------------------------------|
|--7-----7-----7-----7-----7-----7-----7-----7-----7-----6--|

|-----------------------------------------------------------|
|-----------------------------------------------------------|
|-----------------------------------------------------------|
|--6-----6-----6-----6-----6-----6-----6-----6-----6-----6--|

|-----------------------------------------------------------|
|-----------------------------------------------------------|
|-----------------------------------------------------------|
|--6-----6-----6-----6-----6-----6-----6-----7-----6-----5--|

|-----------------------------------------------------------|
|-----------------------------------------------------------|
|-----------------------------------------------------------|
|--4-----4-----4-----4-----4-----4-----4-----4-----4-----4--|

               woh                                           D.S. al CODA
|-----------------------------------------------------------|
|-----------------------------------------------------------|
|--------------------------------------------------2-----3--|
|--4-----4-----4-----4-----4-----4-----4-----4--------------|

CODA
   makes me feel...                                                        it's
|-----------------------------------------|-----------------------------------|
|-----------------------------------------|--------------6-----6-----6--------|
|-----------------------------------------|--------------------------------6--|
|--2-----2-----2-----4-----4-----5-----5--|--4-----4--------------------------|

   good to know...
|---------------------|---------------------------------|-------------------------|
|--6-----4---------4--|---------------------------------|-------------------------|
|--------------7------|--2---4-----4-----4---4---2------|--2---4-----4-----4---4--|
|---------------------|------------------------------4--|-------------------------|

                           she's...    mine               yeah
|-----------------------------------|------------------------------------|
|-----------------------------------|------------------------------------|
|--2-----1-----2-----1--------------|--4-----4------4-----4-----4--------|
|--------------------------4-----2--|---------------------------------4--|

|-------------------------------------|-----------------------------|
|----------------------------------2--|-----------------------------|
|--2-----4-----4-----4-----2-H-4------|--2-----4-----4-----4-----4--|
|-------------------------------------|-----------------------------|

   yo                woh               yeah        yeah
|-----------------------------------|-----------------------------------|----------|
|-----------------------------------|-----------------------------------|----------|
|--2-----1-----2-----1--------------|--4-----4-----4-----4-----4-----2--|--4-----|
|--------------------------4-----2--|-----------------------------------|----------|

|---------|----------|
|---------|----------|
|---------|----------|
|---------|----------|