Torn (de Natalie imbruglia)
(www.acordesytabs.com)
Verse
G|---------------------------|---------------------------|
D|---------------------------|---------------------------|
A|-----------------------3-0-|-----------------------3---|
E|-1--1-1-1--1--1-1-0-1------|-1--1-1-1--1--1-1-0-1----3-|

G|---------------------------|---------------------------|
D|---------------------------|---------------------------|
A|-----------------------3---|-----------------------3---|
E|-5--5-5-5--5--5-5-0-5----3-|-5--5-5-5--5--5-5-0-5----5-|

G|---------------------------|---------------------------||
D|-----------------------3---|-----------------------3---||
A|-1--1-1-1--1--1-1---1----0-|-1--1-1-1--1--1-1---1----3-||
E|------------------1--------|------------------1--------||

Pre-chorus
G|-------------------------------------------|
D|---------5h7-5-----------------5h7-5-------|
A|-5--5--5-------7-----5--5--3h5-------7-5---|
E|-----------------5-----------------------6-|

G|------------------------|------------------------||
D|------------------------|----------------2-------||
A|----------------3-------|-3--3-3-3--3--3---3-0---||
E|-5--5-5-5--5--5---3-5-6-|----------------------3-||

Chorus
G|---------------------------|--------------------------|
D|---------------------------|----------------2---------|
A|----------------3-0--------|-3--3-3-3--3--3---3----0--|
E|-1--1-1-1--1--1-----1--3---|--------------------3-----|

G|----------------2----------|----------------------------||
D|-0--0-0-0--0--0---3-2--0---|----------------3-0---------||
A|-------------------------3-|-1--1-1-1--1--1-----3-1-0-1-||
E|---------------------------|----------------------------||

Lead into Bridge
G|---------------------|---------------------------||
D|---------------------|---------------3-0---------||
A|-5-5-5--5-5--5-5-3-3-|-1-1-1--1-1--1-----3-1-0-1-||
E|---------------------|---------------------------|| 

Bridge
G|------------------------------------------------|
D|------------------------------------------------| 
A|-5--3h5--3/5-5-5--3h5--3/5-5--3h5--3/5-5-5--3h5-| 
E|------------------------------------------------| 

G|------------------------|------------------------||
D|------------------------|----------------2-------||
A|----------------3-------|-3--3-3-3--3--3---3-0---||
E|-5--5-5-5--5--5---3-5-6-|----------------------3-||

Slide Guitar Solo/Outro (as Chorus)