Hexagram (de Deftones)
(www.acordesytabs.com)
Afinação: Ré maior (E, B, G, D, A, D)

Introdução e verso:-

e|-------------------------------------------------------------
b|-------------------------------------------------------------
g|-------------------------------------------------------------
D|-3--3333--33--0000--7--777--77--7--777--77--
A|-3--3333--33--0000--7--777--77--7--777--77--
D|-3--3333--33--0000--7--777--77--7--777--77--


e|---------------------------------------------------
b|---------------------------------------------------
g|---------------------------------------------------
D|-3--3333--33--0000--7--77--8--888--88--8--888--88--
A|-3--3333--33--0000--7--77--8--888--88--8--888--88--
D|-3--3333--33--0000--7--77--8--888--88--8--888--88--

"Paint the streets in white......"

Refrão:-

e|--------------------------------------
b|--------------------------------------
g|--------------------------------------
D|-3h55--5h3h55h3h5--3h55--  x4 then breakdown           -----6-6--5-5--1-1--8
A|-3h55--5h3h55h3h5--3h55--                              -----6-6--5-5--1-1--8
D|-3h55--5h3h55h3h5--3h55--                              -----6-6--5-5--1-1--8

"Worship,play,play....."

Parte final do refrão e final:-

e|---------
b|---------
g|---------
D|-00--7---
A|-00--7---
D|-00--7---


para a segunda parte do refrão, toque o "the breakdown",
depois volte para o refrão.