Simmer down (de Marley bob)
(www.acordesytabs.com)

Artist: Bob MArley
Song: Simmer Down
Tab: Gonz (thegonz1@hotmail.com)


---------3--------2-----------0--------------2-
---0--3-----1--------------0-----0-----1--3----
-1-------------3-----3--1-----------3----------
-----------------------------------------------


-3--------------------------------------------3--
----3--0--------1--3--0-----3--0--------1--3-----
----------1--3-----------1--------1--3-----------
-------------------------------------------------

nice little ska bassline, repeat as needed...