Hybrid moments (de Misfits)
(www.acordesytabs.com)
Intro/Verse
e|-------------------------------------------------|
B|-------------------------------------------------|
G|-------------------------------------------------|
D|-77777777----------------------8-8-8-8--77777777-|
A|-55555555--999999999--5-5-5-5--6-6-6-6--55555555-|
E|-----------777777777--3-3-3-3--------------------|

Chorus
e|---------------------------------------------------------------|
B|---------------------------------------------------------------|
G|---------------------------------------------------------------|
D|-----------------------------7-7-7-7---------------------------|
A|-9-9-9-9--77777777--5-5-5-5--5-5-5-5--7-7-7-7--5-5-5-5-7-7-7-7-|
E|-7-7-7-7--55555555--3-3-3-3-----------5-5-5-5--3-3-3-3-5-5-5-5-|

Outro
e|------------------------------------------|
B|------------------------------------------|
G|------------------------------------------|
D|-77777777------------------------------7--|
A|-55555555--99999999--5-5-5-5--7-7-7-7--5--|
E|-----------77777777--3-3-3-3--5-5-5-5-----|

Song Form

Intro  2X
Chorus 1X
Intro  2X
Chorus 1X
Intro  2X
Chorus 1X
Outro  1X