Love me back to life (de Bon jovi)
(www.acordesytabs.com)
Intro:
D9 - D9/C# - Bm - A9 - G

D9 - D9/C# - Bm - A9 - G


Verse:
 D                    D/C#
This world don't give you nothing 
Bm
And it can't take away 
    G
Everybody holding on to something 
D
Nobody wanna fade away 
D/C#
No forgiveness on the streets of this town 
Bm
Left my patience out of traffic light 
G
There's no denied I almost lost it 

... to tired to fight 

Bridge:
       D5 - Em5 -     G5  
e/-----------------------------
B/-----------------------------
G/----7-7---9-9---12-12-12-12--
D/----7-7---9-9---12-12-12-12--
A/----5-5---7-7---10-10-10-10--
E/-----------------------------
         (D5 - Em5 - G5)   
        Tonight I need you   

       D5 - Em5 -   C5   
e/-----------------------------
B/-----------------------------
G/----7-7---9-9---5-5-5-5------
D/----7-7---9-9---5-5-5-5------
A/----5-5---7-7---3-3-3-3------
E/-----------------------------
       (D5 - Em5 - C5)        
      More than yesterday       

      D5  - Em5 -     G5
e/------------------------------------------------
B/------------------------------------------------
G/----7-7---9-9---12-12-12-12---------------------
D/----7-7---9-9---12-12-12-12---------------------
A/----5-5---7-7---10-10-10-10---------------------
E/-----------------------------3-2-0-3-2-0-3-2-0--
        (D5 - Em5 - G5)
       Tonight I need you 

Chorus:
D9
Take me 

Touch me 
D9/C#          Bm
Hold me like you needed it 
A9          G
Make me come alive 
D9
Hurt me 

Hill me 
Dsus/C#          Bm
Come and make me feel it 
A9         G
Rescue me tonight 

Love me back to life 

verse
D               D/C#
These days I dressed* for feeling 
Bm
There are days my feeling's gone 
G
Make it out this life I'm living 
D
I don't know right from wrong 
D/C#
Then I lost faith and you found it 
Bm
And gave it back to me 
G
In a moonlight on your hello

It took my black eyes to see 

Bridge:
       D5 - Em5 -     G5  
e/-----------------------------
B/-----------------------------
G/----7-7---9-9---12-12-12-12--
D/----7-7---9-9---12-12-12-12--
A/----5-5---7-7---10-10-10-10--
E/-----------------------------
         (D5 - Em5 - G5)   
        Tonight I need you   

       D5 - Em5 -   C5   
e/-----------------------------
B/-----------------------------
G/----7-7---9-9---5-5-5-5------
D/----7-7---9-9---5-5-5-5------
A/----5-5---7-7---3-3-3-3------
E/-----------------------------
       (D5 - Em5 - C5)        
      More than yesterday       

      D5  - Em5 -     G5
e/------------------------------------------------
B/------------------------------------------------
G/----7-7---9-9---12-12-12-12---------------------
D/----7-7---9-9---12-12-12-12---------------------
A/----5-5---7-7---10-10-10-10---------------------
E/-----------------------------3-2-0-3-2-0-3-2-0--
        (D5 - Em5 - G5)
       Tonight I need you 


Chorus:
D9
Take me 

Touch me 
D9/C#          Bm
Hold me like you needed it 
A9          G
Make me come alive 
D9
Hurt me 

Hill me 
Dsus/C#           Bm
Come and make me feel it 
A9         G
Rescue me tonight 
( D5 - F5 - C5 - D5 )-->4X
Love me back to life 
 

Guitar solo
       D5 -  F5 -  C5 -     D5      -->3X 
e/---------------------------------- R   3 
B/---------------------------------- E   V
G/----7-7---8-10---5-5-----7-7-7---- P   E
D/----7-7---8-10---5-5-----7-7-7---- E   Z
A/----5-5---8-10---3-3-----5-5-5---- A   E
E/---------------------------------- T   S

e/------------------------------------ 
B/------------------------------------ 
G/------------------------------------ 
D/------------------------------------
A/------------------------------------ 
E/--3—2-0--3-2-0--3-2-0—-3-2-0--3-3-3-

Bridge2: 
D9
Take me 

Touch me 
D9/C#                 Bm
Hold me like you needed it 
A              G
Make me come alive 
D9
Hurt me 

Hill me 
Dsus/C#           Bm
Come and make me feel it 
A9  G
Rescue 

Chorus:
D9
Take me 

Touch me 
D9/C#           Bm
Hold me like you needed it 
A9          G
Make me come alive 
D9
Hurt me 

Hill me 
Dsus/C#          Bm
Come and make me feel it 
A9        G
Rescue me tonight 
D9      D9/C#
Love me back to life 
Bm               A            G
                Come on love back to life 
D9            D9/C#
                Love me back to life 
Bm               A              G
                Love me back to life