tablaturas, partituras y acordes para guitarra
Busca por banda/artista:
 
y/o título de la canción:
A B C D E F G H I J K L M N O P Q R S T U V W X Y Z 0 1 2 3 4 5 6 7 8 9 / Top 100 tabs
Categorías
Usuarios
usuario:
Darse de alta
password:
Artistas más visitados
Publicidad


Canción pendiente de aprobación:
Boceto
de Mafhir
Puntúa este acorde/tab, le das tu aprobación?:      
(0.448979591837/5)
Boceto-mafhir

e|-----------------------------------------
B|-----------------------------------------
G|-----------------------------------------
D|--2-2-2-2--5-5-5-5--7-7-7-7--------------
A|---2-2-2-2--5-5-5-5--7-7-7-7-------------
E|-0---------------------------------------

e|-----------------------------------------
B|-----------------------------------------
G|-----------------------------------------
D|-9-9-9-9--10-9-7-5-2---------------------
A|--9-9-9-9--------------------------------
E|-----------------------------------------
(se repite dos veces)

e|-----------------------------------------
B|--2-2-2-2--5-5-5-5--7-7-7-7--------------
G|---2-2-2-2--5-5-5-5--7-7-7-7-------------
D|-----------------------------------------
A|-----------------------------------------
E|-----------------------------------------

e|-----------------------------------------
B|-9-9-9-9--10-9-7-5-2---------------------
G|--9-9-9-9--------------------------------
D|-----------------------------------------
A|-----------------------------------------
E|-----------------------------------------
(se repite dos veces)


e|-6-6-5-4---7-7-6-5--8-8-7-6----7-8-7-6---
B|-----------------------------------------
G|-----------------------------------------
D|-----------------------------------------
A|-----------------------------------------
E|-----------------------------------------
(Se repite cuatro veces)





e|-----------------------------------------
B|--2-2-2-2--5-5-5-5--7-7-7-7--------------
G|---2-2-2-2--5-5-5-5--7-7-7-7-------------
D|-----------------------------------------
A|-----------------------------------------
E|-----------------------------------------

e|-----------------------------------------
B|-9-9-9-9--10-9-7-5-2---------------------
G|--9-9-9-9--------------------------------
D|-----------------------------------------
A|-----------------------------------------
E|-----------------------------------------
AcordesyTabs.com © 2008 Acordes y Tablaturas para guitarra. Tabs and Chords for guitar. Aviso Legal - Contacto
El uso de este sitio está sujeto a la aceptación de los términos y condiciones (22 usuarios online)