tablaturas, partituras y acordes para guitarra
Busca por banda/artista:
 
y/o título de la canción:
A B C D E F G H I J K L M N O P Q R S T U V W X Y Z 0 1 2 3 4 5 6 7 8 9 / Top 100 tabs
Categorías
Usuarios
usuario:
Darse de alta
password:
Artistas más visitados
Publicidad


Canción pendiente de aprobación:
Sabes
de Reik
Puntúa este acorde/tab, le das tu aprobación?:      
(0.538461538462/5)
Con capo en el 1er traste


         INTRO


     e|-----------|-----------|------0----|-----------|
     B|------2----|-----------|--------3--|--2--0-----|
     G|--------4--|------2-0--|----2------|--------2--|
     D|----4------|----0------|--0--------|----2------|
     A|--2--------|-----------|-----------|--0--------|
     E|-----------|--3--------|-----------|-----------|

     e|-----------|-----------|-----------|-----------|
     B|------2----|-----------|------0----|-----2-----|
     G|--------4--|------2-0--|--------0--|-----2-----|
     D|----4------|----0------|----2------|-----2-----|
     A|--2--------|-----------|--0--------|-----0-----|
     E|-----------|--3--------|-----------|-----------|



      D                    G
     Sabes  no pido nada  más
                          D
     que estar entre tus brazos
                       G
     y huir de todo el mal
        Bm               Em    
     que a todo he  renunciado
          D              A
     por estar junto a tí


        D                G
     Sabes no dejo de pensar
                    D
     que estoy enamorado
                     G
     te quiero confesar
         Bm             Em   
     que soy solo un esclavo
             D          A
     que no sabe vivir sin tii


          CORO

     Bm     G        D
     Cuando llegaste tú
           A          Bm
     te metiste en mi ser
           G       D
     encendiste la luz
            A       Em
     me llenaste de fé
                      G
     tanto tiempo busqué
                         Em
     pero al fin te encontré
             D         A
     tan perfecta como te imaginé nou nooooo


     Bm     G            D
     Como aguja en un pajar
            A        Bm
     te busqué sin cesar
           G            D
     como huella en el mar
          A          Em
     tan difícil de hallar
                      G
     tanto tiempo busqué
                         Em
     pero al fin te encontré
              D           A
     tan perfectaaaa como te imagine


     DE NUEVO EL INTRO

     e|------------|-----------|------0----|------------|
     B|-------2----|-----------|--------3--|---2---0----|
     G|---------4--|------2-0--|----2------|---------2--|
     D|-----4------|----0------|--0--------|-----2------|
     A|---2--------|-----------|-----------|---0--------|
     E|------------|--3--------|-----------|------------|


     e|------------|-----------|-----------|------------|
     B|-------2----|-----------|------0----|---2--------|
     G|---------4--|------2-0--|--------0--|---2--------|
     D|-----4------|----0------|----2------|---2--------|
     A|---2--------|-----------|--0--------|---0--------|
     E|------------|--3--------|-----------|------------|


      D                   G
     sabes te quiero confesar
                             D
     que te encuentro irresistible
              G
     no dejo de pensar
          Bm          Em       
     que haría lo imposible
             D        A
     por quedarme cerca de ti


         CORO

     Bm     G        D
     Cuando llegaste tú
           A          Bm
     te metiste en mi ser
           G       D
     encendiste la luz
            A       Em
     me llenaste de fé
                      G
     tanto tiempo busqué
                         Em
     pero al fin te encontré
             D         A
     tan perfecta como te imaginé nou nooooo


     Bm     G            D
     Como aguja en un pajar
            A        Bm
     te busqué sin cesar
           G            D
     como huella en el mar
            A          Em
     tan difícil de hallar
                      G
     tanto tiempo busqué
                         Em
     pero al fin te encontré
              D           A
     tan perfectaaaa como te imaginé


     e|------------|-----------|-----------|------------|
     B|-------2----|-----------|------0----|---2--------|
     G|---------4--|------2-0--|--------0--|---2--------|
     D|-----4------|----0------|----2------|---2--------|
     A|---2--------|-----------|--0--------|---0--------|
     E|------------|--3--------|-----------|------------|


       D                 G       G      A          D
     Sabes no pido nada más que estar entre tuuus brazos.



Esta Canción esta dedicada a Maria Teresa Oviedo 
Correa una persona a la que Quiero y Adoro muchisimo
eres lo mas Maravilloso que me ha Pasado, Eres Todo :*
Mi vida eres lo máximo no hace faltan que aparezcas 
en un cuento para q sepan que eres una Princesa
AcordesyTabs.com © 2008 Acordes y Tablaturas para guitarra. Tabs and Chords for guitar. Aviso Legal - Contacto
El uso de este sitio está sujeto a la aceptación de los términos y condiciones (23 usuarios online)