tablaturas, partituras y acordes para guitarra
Busca por banda/artista:
 
y/o título de la canción:
A B C D E F G H I J K L M N O P Q R S T U V W X Y Z 0 1 2 3 4 5 6 7 8 9 / Top 100 tabs
Categorías
Usuarios
usuario:
Darse de alta
password:
Artistas más visitados
Publicidad


Canción pendiente de aprobación:
Doctor Doctor
de Chris Logan/Michael Schenker Group
Puntúa este acorde/tab, le das tu aprobación?:      
(0.277108433735/5)
   Hola en esta tablatura os voy a enseñar el doctor doctor de MSG (Michael Schenker Group).

   ----------------------------------------------------------13--12--10---------------------------------------------
   -----------10--10--8--10--11--10--8--10--10--11--10--10---------------10-------------------------10--8-------8---
   -------10-----------------------------------------------------------------10--9--------------------------10-----7
   ---12----------------------------------------------------------------------------12------------------------------
   --------------------------------------------------------------------------------------12--10--8------------------
   -----------------------------------------------------------------------------------------------------------------

   
   Esta parte que os pongo aquí arriba es la que continua a la anterior.

   -----------------------------------------------------------------------------10------------------------------------------------------------------
   ---------------------------------------------------------------------------------11--13--11--10--11--11--10--11--10------------------------------
   -------------9--10-----9--10--12--12--12--12--9--12--9--10--------10-------------------------------------------------12---9--10--12--9--12--9--10
   ---------12--------12---------------------------------------12--------12-------------------------------------------------------------------------
   -----12------------------------------------------------------------------------------------------------------------------------------------------
   -------------------------------------------------------------------------------------------------------------------------------------------------

   Esta parte también sigue siendo del punteo anterior.

   ---------------------------------------------------------------10--12--13--12--10--10--12--13--10--12--13--15-----13--10---------------------------
   ---10--10--8--11--10--8--10--11-----10--10--11--10-------------------------------------------------------------10---------10------10---------------
   ---------------------------------7------------------12--9--10-----------------------------------------------------------------12------12--10-------
   -------------------------------------------------------------------------------------------------------------------------------------------------12
   ---------------------------------------------------------------------------------------------------------------------------------------------------
   ---------------------------------------------------------------------------------------------------------------------------------------------------
   
   Esta parte también continua a la anterior.

   -------------------------------------------------------------
   -------------------------------------------------------------
   ---3--3--5--7--8--10--8--7--7--8--7--3--3--5--7--8--7--9--11-
   -------------------------------------------------------------
   -------------------------------------------------------------
   -------------------------------------------------------------

   Inmediatamente después de que termine este punteo empieza el 
   siguiente riff que es el mismo que el de la estrofa.
   
   ESTROFA

   ---------------------------------------------------------------------------------
   ---------------------------------------------------------------------------------
   ---7--------3------------------5-------7---------3-------------------------------
   ---7--------3---------5--------5-------7---------3----------3---------5---------7
   ---5--------1---------5--------3-------5---------1----------3---------5---------7
   ----------------------1-------------------------------------1---------3---------5

   ESCRIBILLO

   --------------------------------------------------------
   --------------------------------------------------------
   ---7-------3--------5----------------------------------7
   ---7-------3--------5-------3--------5---------7-------7
   ---5-------1--------3-------3--------5---------7-------5
   ----------------------------1--------3---------5--------
AcordesyTabs.com © 2008 Acordes y Tablaturas para guitarra. Tabs and Chords for guitar. Aviso Legal - Contacto
El uso de este sitio está sujeto a la aceptación de los términos y condiciones (22 usuarios online)