tablaturas, partituras y acordes para guitarra
Busca por banda/artista:
 
y/o título de la canción:
A B C D E F G H I J K L M N O P Q R S T U V W X Y Z 0 1 2 3 4 5 6 7 8 9 / Top 100 tabs
Categorías
Usuarios
usuario:
Darse de alta
password:
Artistas más visitados
Publicidad


Canción pendiente de aprobación:
El jardin (intro)
de Los Delinquentes
Puntúa este acorde/tab, le das tu aprobación?:      
(0.515463917526/5)
 e|-0----3--3-------3--1-0--1---1------1-
 B|-----1------0-3-------------3---3--3--
 G|---0-------0---------------2------0---
 D|-------------------------0------------
 A|-3-------2-------1--0-----------------
 E|--------------------------------3-----

 e|-0------------------3----3-------3-----
 B|----3--1--0--3----3---3--------3---3---
 G|----------------0------------0---------
 D|----2--3--4--5-----------4-------------
 A|-3-------------------------------------
 E|---------------------------------------





                                         Lopo013
AcordesyTabs.com © 2008 Acordes y Tablaturas para guitarra. Tabs and Chords for guitar. Aviso Legal - Contacto
El uso de este sitio está sujeto a la aceptación de los términos y condiciones (24 usuarios online)