tablaturas, partituras y acordes para guitarra
Busca por banda/artista:
 
y/o título de la canción:
A B C D E F G H I J K L M N O P Q R S T U V W X Y Z 0 1 2 3 4 5 6 7 8 9 / Top 100 tabs
Categorías
Usuarios
usuario:
Darse de alta
password:
Artistas más visitados
Publicidad


Canción pendiente de aprobación:
Never to late
de Three Days Grace
Puntúa este acorde/tab, le das tu aprobación?:      
(0.0348837209302/5)
la intro  y el verso son asi:   
the intro and the verse are like this:
|-------------------|-------------------------|
|-------------------|-------------------------|
|-------------------|-------------------------|
|------10-(10)----|----0-10-(10)-8-(8)-7|
|----8---------8---|-----------------------8|
|-8--------------0-|-(0)--------------------|


|-------------------|-------------------------|
|-------------------|-------------------------|
|-------------------|-------------------------|
|------10-(10)------|-----0-10-(10)-8-(8)-7---|
|----8---------8----|-----------------------8-|
|-8--------------0--|-(0)---------------------|


|-------------------|-------------------------|--------------------|---------||
|-------------------|-------------------------|--------------------|---------||
|-------------------|-------------------------|--------------------|---------||
|------10-(10)------|-----0-10-(10)-8-(8)-7---|------10-(10)---10--|-(10)----||
|----8---------8----|-----------------------8-|----7---------7-10--|-(10)----||
|-8--------------0--|-(0)---------------------|-7--------------10--|-(10)----||
AcordesyTabs.com © 2008 Acordes y Tablaturas para guitarra. Tabs and Chords for guitar. Aviso Legal - Contacto
El uso de este sitio está sujeto a la aceptación de los términos y condiciones (21 usuarios online)