tablaturas, partituras y acordes para guitarra
Busca por banda/artista:
 
y/o título de la canción:
A B C D E F G H I J K L M N O P Q R S T U V W X Y Z 0 1 2 3 4 5 6 7 8 9 / Top 100 tabs
Categorías
Usuarios
usuario:
Darse de alta
password:
Artistas más visitados
Publicidad


Canción pendiente de aprobación:
Carpas salteñas
de Los Cantores del Alba
Puntúa este acorde/tab, le das tu aprobación?:      
(0/5)
Capotraste o transporte en el 2º casillero

En este link se puede ver el cover de esta tablatura
https://www.youtube.com/watch?v=WmbgjoVr4F0

Introducción
E|--0-----5--4--5----------8--7--8--------8--8--10--8--7-----4-----5--4--5--
B|--------------------------------------------------------------------------
G|-----5-----4--5-----5\9-----7--9-----9--------10--9--7-----4--5-----4--5--
D|--------------------------------------------------------------------------
A|--------------------------------------------------------------------------
E|--------------------------------------------------------------------------

E|--0-----5-----5--4--5----------8-----8--7--8--------8--8--10--8--7-----4--5-----------------------------
B|--------------------------------------------------------------------------------------------------------
G|-----5-----5-----4--5-----5\9-----9-----7--9-----9--------10--9--7-----4--5--------1-----2-----1-----2--
D|--------------------------------------------------------------------------------------------------------
A|--------------------------------------------------------------------------------------0-----------0-----
E|--------------------------------------------------------------------------------0-----------0-----------


(1) Bordoneo

E|-------------------------------------------------------------------------------------------------------------
B|----------------------------------------------------------1--------1--------0--------0-----------------------
G|--------------------2----------------------------------------------------------------------------------------
D|-----------------2-----3--0--------------------1\2-----------------------------------------------------------
A|--------0--2--3--------------2-----0--2--3----------3--0-----0--0-----0--2-----2--2--------2--------------0--
E|--0--3--------------------------3-------------------------------------------------------------4--0--2--4-----

Am        A7 Dm
Carpas de Salta
G7                 C
las vuelvo a recordar
Am             E7
bandoneón y guitarra,
               Am
zambas para bailar.

Chicha y aloja,
vinito pa' tomar
ramas de albahaca verde,
olor a Carnaval.

(1)
G7               C
Carpas de La Silleta,
         G7            C
Campo Quijano y La Merced.
Am             E7
Toda Salta de fiesta
                   Am
¿quién pudiera volver?

Agua florida,
harina pa' jugar
canastillas de flores:
todo pa'l Carnaval.

Ellas alegres,
airosas a bailar;
ellos se hacen mil hachas
de tanto zapatear.
AcordesyTabs.com © 2008 Acordes y Tablaturas para guitarra. Tabs and Chords for guitar. Aviso Legal - Contacto
El uso de este sitio está sujeto a la aceptación de los términos y condiciones (52 usuarios online)